ISO-10303-21;
HEADER;
FILE_DESCRIPTION (( 'STEP AP203' ),
    '1' );
FILE_NAME ('End Cap SDR17_001 115 0140 0075.step',
    '2019-12-16T11:43:28',
    ( '' ),
    ( '' ),
    'SwSTEP 2.0',
    'SolidWorks 2019',
    '' );
FILE_SCHEMA (( 'CONFIG_CONTROL_DESIGN' ));
ENDSEC;

DATA;
#1 = AXIS2_PLACEMENT_3D ( 'NONE', #76, #187, #267 ) ;
#2 = TOROIDAL_SURFACE ( 'NONE', #1, 1.020416504756019638, 145.5001073465469972 ) ;
#3 = EDGE_CURVE ( 'NONE', #43, #196, #304, .T. ) ;
#4 = ORIENTED_EDGE ( 'NONE', *, *, #306, .T. ) ;
#5 = CIRCLE ( 'NONE', #203, 145.5001073465469972 ) ;
#6 = PERSON_AND_ORGANIZATION ( #88, #224 ) ;
#7 = PERSON_AND_ORGANIZATION ( #88, #224 ) ;
#8 = CARTESIAN_POINT ( 'NONE',  ( 0.0000000000000000000, 0.0000000000000000000, -37.49999999999999289 ) ) ;
#9 = DIRECTION ( 'NONE',  ( -0.0000000000000000000, -1.000000000000000000, -0.0000000000000000000 ) ) ;
#10 = VERTEX_POINT ( 'NONE', #261 ) ;
#11 = APPROVAL_ROLE ( '' ) ;
#12 = DIRECTION ( 'NONE',  ( 0.0000000000000000000, 0.0000000000000000000, -1.000000000000000000 ) ) ;
#13 = CARTESIAN_POINT ( 'NONE',  ( 0.0000000000000000000, 0.0000000000000000000, 0.0000000000000000000 ) ) ;
#14 = VERTEX_POINT ( 'NONE', #243 ) ;
#15 = CARTESIAN_POINT ( 'NONE',  ( 1.249649806346589399E-16, -71.94219766273671723, 1.020416504756019638 ) ) ;
#16 = EDGE_LOOP ( 'NONE', ( #77, #79 ) ) ;
#17 = APPROVAL ( #65, 'BELÝRTÝLMEMÝÞ' ) ;
#18 = DIRECTION ( 'NONE',  ( 0.0000000000000000000, 0.0000000000000000000, -1.000000000000000000 ) ) ;
#19 = ORIENTED_EDGE ( 'NONE', *, *, #297, .F. ) ;
#20 = AXIS2_PLACEMENT_3D ( 'NONE', #163, #246, #18 ) ;
#21 = ADVANCED_BREP_SHAPE_REPRESENTATION ( 'End Cap SDR17_001 115 0140 0075', ( #245, #36 ), #298 ) ;
#22 = APPROVAL_PERSON_ORGANIZATION ( #275, #17, #178 ) ;
#23 = DIRECTION ( 'NONE',  ( 0.0000000000000000000, -1.000000000000000000, -0.0000000000000000000 ) ) ;
#24 = ORIENTED_EDGE ( 'NONE', *, *, #236, .T. ) ;
#25 = CARTESIAN_POINT ( 'NONE',  ( 0.0000000000000000000, 0.0000000000000000000, 0.0000000000000000000 ) ) ;
#26 = AXIS2_PLACEMENT_3D ( 'NONE', #205, #283, #78 ) ;
#27 = PERSON_AND_ORGANIZATION ( #88, #224 ) ;
#28 = ORIENTED_EDGE ( 'NONE', *, *, #271, .F. ) ;
#29 = ADVANCED_FACE ( 'NONE', ( #240 ), #232, .T. ) ;
#30 = ORIENTED_EDGE ( 'NONE', *, *, #271, .T. ) ;
#31 = ORIENTED_EDGE ( 'NONE', *, *, #256, .T. ) ;
#32 = ADVANCED_FACE ( 'NONE', ( #217 ), #222, .T. ) ;
#33 = EDGE_LOOP ( 'NONE', ( #61, #69, #72, #75 ) ) ;
#34 = VECTOR ( 'NONE', #299, 1000.000000000000000 ) ;
#35 = EDGE_LOOP ( 'NONE', ( #51, #53, #59, #60 ) ) ;
#36 = AXIS2_PLACEMENT_3D ( 'NONE', #115, #207, #286 ) ;
#37 = CALENDAR_DATE ( 2019, 16, 12 ) ;
#38 = CARTESIAN_POINT ( 'NONE',  ( 0.0000000000000000000, 0.0000000000000000000, 0.0000000000000000000 ) ) ;
#39 = CYLINDRICAL_SURFACE ( 'NONE', #193, 37.49999999999999289 ) ;
#40 = DATE_TIME_ROLE ( 'classification_date' ) ;
#41 = CARTESIAN_POINT ( 'NONE',  ( -2.146720301521298779E-14, 78.05433146429615476, 0.0000000000000000000 ) ) ;
#42 = FACE_OUTER_BOUND ( 'NONE', #150, .T. ) ;
#43 = VERTEX_POINT ( 'NONE', #148 ) ;
#44 = DIRECTION ( 'NONE',  ( 0.0000000000000000000, 0.0000000000000000000, -1.000000000000000000 ) ) ;
#45 = ORIENTED_EDGE ( 'NONE', *, *, #285, .F. ) ;
#46 = ADVANCED_FACE ( 'NONE', ( #42 ), #39, .T. ) ;
#47 = CYLINDRICAL_SURFACE ( 'NONE', #20, 32.99999999999998579 ) ;
#48 = ORIENTED_EDGE ( 'NONE', *, *, #244, .F. ) ;
#49 = CIRCLE ( 'NONE', #93, 32.99999999999997868 ) ;
#50 = FACE_BOUND ( 'NONE', #161, .T. ) ;
#51 = ORIENTED_EDGE ( 'NONE', *, *, #306, .F. ) ;
#52 = CARTESIAN_POINT ( 'NONE',  ( 0.0000000000000000000, 0.0000000000000000000, 0.0000000000000000000 ) ) ;
#53 = ORIENTED_EDGE ( 'NONE', *, *, #192, .T. ) ;
#54 = DIRECTION ( 'NONE',  ( -0.0000000000000000000, -1.000000000000000000, -0.0000000000000000000 ) ) ;
#55 = PERSON_AND_ORGANIZATION ( #88, #224 ) ;
#56 = CIRCLE ( 'NONE', #234, 32.99999999999997868 ) ;
#57 = APPROVAL ( #241, 'BELÝRTÝLMEMÝÞ' ) ;
#58 = VERTEX_POINT ( 'NONE', #226 ) ;
#59 = ORIENTED_EDGE ( 'NONE', *, *, #147, .T. ) ;
#60 = ORIENTED_EDGE ( 'NONE', *, *, #3, .F. ) ;
#61 = ORIENTED_EDGE ( 'NONE', *, *, #192, .F. ) ;
#62 = VECTOR ( 'NONE', #185, 1000.000000000000000 ) ;
#63 = AXIS2_PLACEMENT_3D ( 'NONE', #15, #106, #202 ) ;
#64 = CC_DESIGN_APPROVAL ( #17, ( #176 ) ) ;
#65 = APPROVAL_STATUS ( 'not_yet_approved' ) ;
#66 = COORDINATED_UNIVERSAL_TIME_OFFSET ( 3, 0, .AHEAD. ) ;
#67 = DIRECTION ( 'NONE',  ( 0.0000000000000000000, 0.0000000000000000000, -1.000000000000000000 ) ) ;
#68 = DIRECTION ( 'NONE',  ( 0.0000000000000000000, 0.0000000000000000000, -1.000000000000000000 ) ) ;
#69 = ORIENTED_EDGE ( 'NONE', *, *, #270, .F. ) ;
#70 = CARTESIAN_POINT ( 'NONE',  ( 0.0000000000000000000, 0.0000000000000000000, -32.99999999999999289 ) ) ;
#71 = ADVANCED_FACE ( 'NONE', ( #155 ), #212, .F. ) ;
#72 = ORIENTED_EDGE ( 'NONE', *, *, #3, .T. ) ;
#73 = CIRCLE ( 'NONE', #124, 37.49999999999999289 ) ;
#74 = CARTESIAN_POINT ( 'NONE',  ( 0.0000000000000000000, 0.0000000000000000000, -37.49999999999999289 ) ) ;
#75 = ORIENTED_EDGE ( 'NONE', *, *, #173, .T. ) ;
#76 = CARTESIAN_POINT ( 'NONE',  ( 0.0000000000000000000, -71.94219766273671723, 0.0000000000000000000 ) ) ;
#77 = ORIENTED_EDGE ( 'NONE', *, *, #285, .T. ) ;
#78 = DIRECTION ( 'NONE',  ( 0.0000000000000000000, 0.0000000000000000000, -1.000000000000000000 ) ) ;
#79 = ORIENTED_EDGE ( 'NONE', *, *, #116, .T. ) ;
#80 = DIRECTION ( 'NONE',  ( 1.000000000000000000, 0.0000000000000000000, -1.224646799147353207E-16 ) ) ;
#81 =( NAMED_UNIT ( * ) SI_UNIT ( $, .STERADIAN. ) SOLID_ANGLE_UNIT ( ) );
#82 = MECHANICAL_CONTEXT ( 'NONE', #114, 'mechanical' ) ;
#83 = CIRCLE ( 'NONE', #63, 150.0000000000000000 ) ;
#84 = VERTEX_POINT ( 'NONE', #8 ) ;
#85 = CC_DESIGN_DATE_AND_TIME_ASSIGNMENT ( #95, #194, ( #254 ) ) ;
#86 = AXIS2_PLACEMENT_3D ( 'NONE', #136, #221, #296 ) ;
#87 = APPROVAL_PERSON_ORGANIZATION ( #27, #204, #228 ) ;
#88 = PERSON ( 'BELÝRTÝLMEMÝÞ', 'BELÝRTÝLMEMÝÞ', 'BELÝRTÝLMEMÝÞ', ('BELÝRTÝLMEMÝÞ'), ('BELÝRTÝLMEMÝÞ'), ('BELÝRTÝLMEMÝÞ') ) ;
#89 = ORIENTED_EDGE ( 'NONE', *, *, #173, .F. ) ;
#90 = ORIENTED_EDGE ( 'NONE', *, *, #147, .F. ) ;
#91 = ORIENTED_EDGE ( 'NONE', *, *, #256, .F. ) ;
#92 = ORIENTED_EDGE ( 'NONE', *, *, #213, .T. ) ;
#93 = AXIS2_PLACEMENT_3D ( 'NONE', #225, #301, #110 ) ;
#94 = TOROIDAL_SURFACE ( 'NONE', #86, 1.020416504756019638, 145.5001073465469972 ) ;
#95 = DATE_AND_TIME ( #290, #287 ) ;
#96 = PRODUCT_DEFINITION_SHAPE ( 'NONE', 'NONE',  #254 ) ;
#97 = EDGE_CURVE ( 'NONE', #132, #43, #191, .T. ) ;
#98 = SECURITY_CLASSIFICATION_LEVEL ( 'unclassified' ) ;
#99 = CARTESIAN_POINT ( 'NONE',  ( 0.0000000000000000000, 73.55433146429615476, -37.49999999999998579 ) ) ;
#100 = DIRECTION ( 'NONE',  ( -0.0000000000000000000, -1.000000000000000000, -0.0000000000000000000 ) ) ;
#101 = ORIENTED_EDGE ( 'NONE', *, *, #244, .T. ) ;
#102 = APPROVAL_DATE_TIME ( #294, #57 ) ;
#103 = LINE ( 'NONE', #201, #120 ) ;
#104 = VERTEX_POINT ( 'NONE', #99 ) ;
#105 = AXIS2_PLACEMENT_3D ( 'NONE', #183, #265, #44 ) ;
#106 = DIRECTION ( 'NONE',  ( 1.000000000000000000, 0.0000000000000000000, -1.224646799147353207E-16 ) ) ;
#107 = ORIENTED_EDGE ( 'NONE', *, *, #116, .F. ) ;
#108 = FACE_OUTER_BOUND ( 'NONE', #138, .T. ) ;
#109 = EDGE_LOOP ( 'NONE', ( #111, #119, #122 ) ) ;
#110 = DIRECTION ( 'NONE',  ( 0.0000000000000000000, 0.0000000000000000000, -1.000000000000000000 ) ) ;
#111 = ORIENTED_EDGE ( 'NONE', *, *, #236, .F. ) ;
#112 = DIRECTION ( 'NONE',  ( -1.000000000000000000, 0.0000000000000000000, 0.0000000000000000000 ) ) ;
#113 =( NAMED_UNIT ( * ) PLANE_ANGLE_UNIT ( ) SI_UNIT ( $, .RADIAN. ) );
#114 = APPLICATION_CONTEXT ( 'configuration controlled 3d designs of mechanical parts and assemblies' ) ;
#115 = CARTESIAN_POINT ( 'NONE',  ( 0.0000000000000000000, 0.0000000000000000000, 0.0000000000000000000 ) ) ;
#116 = EDGE_CURVE ( 'NONE', #10, #84, #174, .T. ) ;
#117 = CALENDAR_DATE ( 2019, 16, 12 ) ;
#118 = CIRCLE ( 'NONE', #105, 37.49999999999998579 ) ;
#119 = ORIENTED_EDGE ( 'NONE', *, *, #297, .T. ) ;
#120 = VECTOR ( 'NONE', #278, 1000.000000000000000 ) ;
#121 = LOCAL_TIME ( 14, 43, 28.00000000000000000, #66 ) ;
#122 = ORIENTED_EDGE ( 'NONE', *, *, #213, .F. ) ;
#123 = ORIENTED_EDGE ( 'NONE', *, *, #302, .F. ) ;
#124 = AXIS2_PLACEMENT_3D ( 'NONE', #25, #145, #227 ) ;
#125 = ORIENTED_EDGE ( 'NONE', *, *, #97, .T. ) ;
#126 = CC_DESIGN_DATE_AND_TIME_ASSIGNMENT ( #262, #40, ( #249 ) ) ;
#127 = PERSON_AND_ORGANIZATION_ROLE ( 'creator' ) ;
#128 = ORIENTED_EDGE ( 'NONE', *, *, #270, .T. ) ;
#129 = PERSON_AND_ORGANIZATION_ROLE ( 'creator' ) ;
#130 = CARTESIAN_POINT ( 'NONE',  ( 0.0000000000000000000, -71.94219766273671723, -1.020416504756019638 ) ) ;
#131 = CARTESIAN_POINT ( 'NONE',  ( 0.0000000000000000000, -71.94219766273671723, 0.0000000000000000000 ) ) ;
#132 = VERTEX_POINT ( 'NONE', #181 ) ;
#133 = COORDINATED_UNIVERSAL_TIME_OFFSET ( 3, 0, .AHEAD. ) ;
#134 = CARTESIAN_POINT ( 'NONE',  ( 0.0000000000000000000, 0.0000000000000000000, 0.0000000000000000000 ) ) ;
#135 = VERTEX_POINT ( 'NONE', #263 ) ;
#136 = CARTESIAN_POINT ( 'NONE',  ( 0.0000000000000000000, -71.94219766273671723, 0.0000000000000000000 ) ) ;
#137 = APPLICATION_CONTEXT ( 'configuration controlled 3d designs of mechanical parts and assemblies' ) ;
#138 = EDGE_LOOP ( 'NONE', ( #123, #125, #128 ) ) ;
#139 = AXIS2_PLACEMENT_3D ( 'NONE', #134, #219, #295 ) ;
#140 = LINE ( 'NONE', #223, #34 ) ;
#141 = VERTEX_POINT ( 'NONE', #41 ) ;
#142 = CC_DESIGN_APPROVAL ( #204, ( #254 ) ) ;
#143 = DIRECTION ( 'NONE',  ( 0.0000000000000000000, 0.0000000000000000000, -1.000000000000000000 ) ) ;
#144 = EDGE_LOOP ( 'NONE', ( #30, #31, #45, #48 ) ) ;
#145 = DIRECTION ( 'NONE',  ( -0.0000000000000000000, -1.000000000000000000, -0.0000000000000000000 ) ) ;
#146 =( LENGTH_UNIT ( ) NAMED_UNIT ( * ) SI_UNIT ( .MILLI., .METRE. ) );
#147 = EDGE_CURVE ( 'NONE', #135, #196, #164, .T. ) ;
#148 = CARTESIAN_POINT ( 'NONE',  ( 0.0000000000000000000, 70.00000000000000000, -32.99999999999997868 ) ) ;
#149 = APPROVAL_STATUS ( 'not_yet_approved' ) ;
#150 = EDGE_LOOP ( 'NONE', ( #91, #92, #101, #107 ) ) ;
#151 = CIRCLE ( 'NONE', #139, 32.99999999999999289 ) ;
#152 = EDGE_LOOP ( 'NONE', ( #19, #24, #28 ) ) ;
#153 = EDGE_LOOP ( 'NONE', ( #208, #252, #4 ) ) ;
#154 = AXIS2_PLACEMENT_3D ( 'NONE', #160, #242, #12 ) ;
#155 = FACE_OUTER_BOUND ( 'NONE', #33, .T. ) ;
#156 = CC_DESIGN_PERSON_AND_ORGANIZATION_ASSIGNMENT ( #6, #127, ( #254 ) ) ;
#157 = DATE_AND_TIME ( #37, #211 ) ;
#158 = DIRECTION ( 'NONE',  ( -0.0000000000000000000, -1.000000000000000000, -0.0000000000000000000 ) ) ;
#159 = PERSON_AND_ORGANIZATION ( #88, #224 ) ;
#160 = CARTESIAN_POINT ( 'NONE',  ( 0.0000000000000000000, 0.0000000000000000000, 0.0000000000000000000 ) ) ;
#161 = EDGE_LOOP ( 'NONE', ( #89, #90 ) ) ;
#162 = FACE_OUTER_BOUND ( 'NONE', #153, .T. ) ;
#163 = CARTESIAN_POINT ( 'NONE',  ( 0.0000000000000000000, 0.0000000000000000000, 0.0000000000000000000 ) ) ;
#164 = CIRCLE ( 'NONE', #154, 32.99999999999999289 ) ;
#165 = PLANE ( 'NONE',  #230 ) ;
#166 = AXIS2_PLACEMENT_3D ( 'NONE', #198, #277, #67 ) ;
#167 = LOCAL_TIME ( 14, 43, 28.00000000000000000, #133 ) ;
#168 = DIRECTION ( 'NONE',  ( -0.0000000000000000000, -1.000000000000000000, -0.0000000000000000000 ) ) ;
#169 = DIRECTION ( 'NONE',  ( 0.0000000000000000000, 0.0000000000000000000, -1.000000000000000000 ) ) ;
#170 = APPLICATION_PROTOCOL_DEFINITION ( 'international standard', 'config_control_design', 1994, #114 ) ;
#171 = AXIS2_PLACEMENT_3D ( 'NONE', #303, #112, #206 ) ;
#172 = PERSON_AND_ORGANIZATION_ROLE ( 'design_owner' ) ;
#173 = EDGE_CURVE ( 'NONE', #196, #135, #151, .T. ) ;
#174 = CIRCLE ( 'NONE', #166, 37.49999999999999289 ) ;
#175 = AXIS2_PLACEMENT_3D ( 'NONE', #130, #216, #292 ) ;
#176 = PRODUCT_DEFINITION_FORMATION_WITH_SPECIFIED_SOURCE ( 'HERHANGÝ', '', #273, .NOT_KNOWN. ) ;
#177 = UNCERTAINTY_MEASURE_WITH_UNIT (LENGTH_MEASURE( 1.000000000000000082E-05 ), #146, 'distance_accuracy_value', 'NONE');
#178 = APPROVAL_ROLE ( '' ) ;
#179 = DIRECTION ( 'NONE',  ( 0.0000000000000000000, 0.0000000000000000000, -1.000000000000000000 ) ) ;
#180 = CALENDAR_DATE ( 2019, 16, 12 ) ;
#181 = CARTESIAN_POINT ( 'NONE',  ( -1.606188386755555029E-14, 73.55433146429615476, 0.0000000000000000000 ) ) ;
#182 = DIRECTION ( 'NONE',  ( -0.0000000000000000000, -1.000000000000000000, -0.0000000000000000000 ) ) ;
#183 = CARTESIAN_POINT ( 'NONE',  ( 0.0000000000000000000, 73.55433146429615476, 0.0000000000000000000 ) ) ;
#184 = CIRCLE ( 'NONE', #26, 37.49999999999998579 ) ;
#185 = DIRECTION ( 'NONE',  ( -0.0000000000000000000, -1.000000000000000000, -0.0000000000000000000 ) ) ;
#186 = CC_DESIGN_PERSON_AND_ORGANIZATION_ASSIGNMENT ( #197, #276, ( #249 ) ) ;
#187 = DIRECTION ( 'NONE',  ( -0.0000000000000000000, -1.000000000000000000, -0.0000000000000000000 ) ) ;
#188 = FACE_OUTER_BOUND ( 'NONE', #144, .T. ) ;
#189 = DIRECTION ( 'NONE',  ( -1.224646799147353207E-16, 0.0000000000000000000, -1.000000000000000000 ) ) ;
#190 = AXIS2_PLACEMENT_3D ( 'NONE', #38, #158, #239 ) ;
#191 = CIRCLE ( 'NONE', #175, 145.5001073465469972 ) ;
#192 = EDGE_CURVE ( 'NONE', #58, #135, #103, .T. ) ;
#193 = AXIS2_PLACEMENT_3D ( 'NONE', #13, #9, #289 ) ;
#194 = DATE_TIME_ROLE ( 'creation_date' ) ;
#195 = CC_DESIGN_SECURITY_CLASSIFICATION ( #249, ( #176 ) ) ;
#196 = VERTEX_POINT ( 'NONE', #70 ) ;
#197 = PERSON_AND_ORGANIZATION ( #88, #224 ) ;
#198 = CARTESIAN_POINT ( 'NONE',  ( 0.0000000000000000000, 0.0000000000000000000, 0.0000000000000000000 ) ) ;
#199 = CARTESIAN_POINT ( 'NONE',  ( 0.0000000000000000000, -71.94219766273671723, 0.0000000000000000000 ) ) ;
#200 = SHAPE_DEFINITION_REPRESENTATION ( #96, #21 ) ;
#201 = CARTESIAN_POINT ( 'NONE',  ( 4.041334437186264622E-15, 0.0000000000000000000, 32.99999999999998579 ) ) ;
#202 = DIRECTION ( 'NONE',  ( -1.224646799147353207E-16, 0.0000000000000000000, -1.000000000000000000 ) ) ;
#203 = AXIS2_PLACEMENT_3D ( 'NONE', #284, #80, #189 ) ;
#204 = APPROVAL ( #149, 'BELÝRTÝLMEMÝÞ' ) ;
#205 = CARTESIAN_POINT ( 'NONE',  ( 0.0000000000000000000, 73.55433146429615476, 0.0000000000000000000 ) ) ;
#206 = DIRECTION ( 'NONE',  ( 0.0000000000000000000, 0.0000000000000000000, 1.000000000000000000 ) ) ;
#207 = DIRECTION ( 'NONE',  ( 0.0000000000000000000, 0.0000000000000000000, 1.000000000000000000 ) ) ;
#208 = ORIENTED_EDGE ( 'NONE', *, *, #97, .F. ) ;
#209 = DATE_AND_TIME ( #117, #258 ) ;
#210 = AXIS2_PLACEMENT_3D ( 'NONE', #131, #100, #68 ) ;
#211 = LOCAL_TIME ( 14, 43, 28.00000000000000000, #259 ) ;
#212 = CYLINDRICAL_SURFACE ( 'NONE', #190, 32.99999999999998579 ) ;
#213 = EDGE_CURVE ( 'NONE', #14, #104, #118, .T. ) ;
#214 = COORDINATED_UNIVERSAL_TIME_OFFSET ( 3, 0, .AHEAD. ) ;
#215 = PERSON_AND_ORGANIZATION ( #88, #224 ) ;
#216 = DIRECTION ( 'NONE',  ( -1.000000000000000000, 0.0000000000000000000, 0.0000000000000000000 ) ) ;
#217 = FACE_OUTER_BOUND ( 'NONE', #109, .T. ) ;
#218 = CALENDAR_DATE ( 2019, 16, 12 ) ;
#219 = DIRECTION ( 'NONE',  ( -0.0000000000000000000, -1.000000000000000000, -0.0000000000000000000 ) ) ;
#220 = ADVANCED_FACE ( 'NONE', ( #162 ), #94, .F. ) ;
#221 = DIRECTION ( 'NONE',  ( -0.0000000000000000000, -1.000000000000000000, -0.0000000000000000000 ) ) ;
#222 = TOROIDAL_SURFACE ( 'NONE', #210, 1.020416504756019638, 150.0000000000000000 ) ;
#223 = CARTESIAN_POINT ( 'NONE',  ( 4.592425496802573578E-15, 0.0000000000000000000, 37.49999999999999289 ) ) ;
#224 = ORGANIZATION ( 'BELÝRTÝLMEMÝÞ', 'BELÝRTÝLMEMÝÞ', '' ) ;
#225 = CARTESIAN_POINT ( 'NONE',  ( 0.0000000000000000000, 70.00000000000000000, 0.0000000000000000000 ) ) ;
#226 = CARTESIAN_POINT ( 'NONE',  ( 4.041334437186263833E-15, 70.00000000000000000, 32.99999999999997868 ) ) ;
#227 = DIRECTION ( 'NONE',  ( 0.0000000000000000000, 0.0000000000000000000, -1.000000000000000000 ) ) ;
#228 = APPROVAL_ROLE ( '' ) ;
#229 = CC_DESIGN_PERSON_AND_ORGANIZATION_ASSIGNMENT ( #215, #291, ( #176 ) ) ;
#230 = AXIS2_PLACEMENT_3D ( 'NONE', #248, #23, #143 ) ;
#231 = AXIS2_PLACEMENT_3D ( 'NONE', #199, #182, #179 ) ;
#232 = TOROIDAL_SURFACE ( 'NONE', #231, 1.020416504756019638, 150.0000000000000000 ) ;
#233 = VECTOR ( 'NONE', #264, 1000.000000000000000 ) ;
#234 = AXIS2_PLACEMENT_3D ( 'NONE', #269, #54, #169 ) ;
#235 = DESIGN_CONTEXT ( 'detailed design', #137, 'design' ) ;
#236 = EDGE_CURVE ( 'NONE', #141, #14, #83, .T. ) ;
#237 = APPROVAL_DATE_TIME ( #209, #204 ) ;
#238 = APPROVAL_DATE_TIME ( #157, #17 ) ;
#239 = DIRECTION ( 'NONE',  ( 0.0000000000000000000, 0.0000000000000000000, -1.000000000000000000 ) ) ;
#240 = FACE_OUTER_BOUND ( 'NONE', #152, .T. ) ;
#241 = APPROVAL_STATUS ( 'not_yet_approved' ) ;
#242 = DIRECTION ( 'NONE',  ( -0.0000000000000000000, -1.000000000000000000, -0.0000000000000000000 ) ) ;
#243 = CARTESIAN_POINT ( 'NONE',  ( 4.592425496802572789E-15, 73.55433146429615476, 37.49999999999998579 ) ) ;
#244 = EDGE_CURVE ( 'NONE', #104, #84, #280, .T. ) ;
#245 = MANIFOLD_SOLID_BREP ( 'Döndür1', #247 ) ;
#246 = DIRECTION ( 'NONE',  ( -0.0000000000000000000, -1.000000000000000000, -0.0000000000000000000 ) ) ;
#247 = CLOSED_SHELL ( 'NONE', ( #220, #29, #281, #251, #71, #260, #46, #32, #257 ) ) ;
#248 = CARTESIAN_POINT ( 'NONE',  ( 32.99999999999999289, 0.0000000000000000000, 0.0000000000000000000 ) ) ;
#249 = SECURITY_CLASSIFICATION ( '', '', #98 ) ;
#250 = DIRECTION ( 'NONE',  ( 0.0000000000000000000, 0.0000000000000000000, -1.000000000000000000 ) ) ;
#251 = ADVANCED_FACE ( 'NONE', ( #266 ), #47, .F. ) ;
#252 = ORIENTED_EDGE ( 'NONE', *, *, #302, .T. ) ;
#253 = AXIS2_PLACEMENT_3D ( 'NONE', #52, #168, #250 ) ;
#254 = PRODUCT_DEFINITION ( 'BÝLÝNMEYEN', '', #176, #235 ) ;
#255 = APPLICATION_PROTOCOL_DEFINITION ( 'international standard', 'config_control_design', 1994, #137 ) ;
#256 = EDGE_CURVE ( 'NONE', #14, #10, #140, .T. ) ;
#257 = ADVANCED_FACE ( 'NONE', ( #108 ), #2, .F. ) ;
#258 = LOCAL_TIME ( 14, 43, 28.00000000000000000, #305 ) ;
#259 = COORDINATED_UNIVERSAL_TIME_OFFSET ( 3, 0, .AHEAD. ) ;
#260 = ADVANCED_FACE ( 'NONE', ( #282, #50 ), #165, .T. ) ;
#261 = CARTESIAN_POINT ( 'NONE',  ( 4.592425496802573578E-15, 0.0000000000000000000, 37.49999999999999289 ) ) ;
#262 = DATE_AND_TIME ( #180, #121 ) ;
#263 = CARTESIAN_POINT ( 'NONE',  ( 4.041334437186265411E-15, 0.0000000000000000000, 32.99999999999999289 ) ) ;
#264 = DIRECTION ( 'NONE',  ( -0.0000000000000000000, -1.000000000000000000, -0.0000000000000000000 ) ) ;
#265 = DIRECTION ( 'NONE',  ( -0.0000000000000000000, -1.000000000000000000, -0.0000000000000000000 ) ) ;
#266 = FACE_OUTER_BOUND ( 'NONE', #35, .T. ) ;
#267 = DIRECTION ( 'NONE',  ( 0.0000000000000000000, 0.0000000000000000000, -1.000000000000000000 ) ) ;
#268 = CYLINDRICAL_SURFACE ( 'NONE', #253, 37.49999999999999289 ) ;
#269 = CARTESIAN_POINT ( 'NONE',  ( 0.0000000000000000000, 70.00000000000000000, 0.0000000000000000000 ) ) ;
#270 = EDGE_CURVE ( 'NONE', #43, #58, #49, .T. ) ;
#271 = EDGE_CURVE ( 'NONE', #104, #14, #184, .T. ) ;
#272 = CC_DESIGN_PERSON_AND_ORGANIZATION_ASSIGNMENT ( #7, #129, ( #176 ) ) ;
#273 = PRODUCT ( 'End Cap SDR17_001 115 0140 0075', 'End Cap SDR17_001 115 0140 0075', '', ( #82 ) ) ;
#274 = APPROVAL_PERSON_ORGANIZATION ( #159, #57, #11 ) ;
#275 = PERSON_AND_ORGANIZATION ( #88, #224 ) ;
#276 = PERSON_AND_ORGANIZATION_ROLE ( 'classification_officer' ) ;
#277 = DIRECTION ( 'NONE',  ( -0.0000000000000000000, -1.000000000000000000, -0.0000000000000000000 ) ) ;
#278 = DIRECTION ( 'NONE',  ( -0.0000000000000000000, -1.000000000000000000, -0.0000000000000000000 ) ) ;
#279 = CIRCLE ( 'NONE', #171, 150.0000000000000000 ) ;
#280 = LINE ( 'NONE', #74, #62 ) ;
#281 = ADVANCED_FACE ( 'NONE', ( #188 ), #268, .T. ) ;
#282 = FACE_OUTER_BOUND ( 'NONE', #16, .T. ) ;
#283 = DIRECTION ( 'NONE',  ( -0.0000000000000000000, -1.000000000000000000, -0.0000000000000000000 ) ) ;
#284 = CARTESIAN_POINT ( 'NONE',  ( 1.249649806346589399E-16, -71.94219766273671723, 1.020416504756019638 ) ) ;
#285 = EDGE_CURVE ( 'NONE', #84, #10, #73, .T. ) ;
#286 = DIRECTION ( 'NONE',  ( 1.000000000000000000, 0.0000000000000000000, 0.0000000000000000000 ) ) ;
#287 = LOCAL_TIME ( 14, 43, 28.00000000000000000, #214 ) ;
#288 = CC_DESIGN_PERSON_AND_ORGANIZATION_ASSIGNMENT ( #55, #172, ( #273 ) ) ;
#289 = DIRECTION ( 'NONE',  ( 0.0000000000000000000, 0.0000000000000000000, -1.000000000000000000 ) ) ;
#290 = CALENDAR_DATE ( 2019, 16, 12 ) ;
#291 = PERSON_AND_ORGANIZATION_ROLE ( 'design_supplier' ) ;
#292 = DIRECTION ( 'NONE',  ( 0.0000000000000000000, 0.0000000000000000000, 1.000000000000000000 ) ) ;
#293 = CARTESIAN_POINT ( 'NONE',  ( 0.0000000000000000000, 0.0000000000000000000, -32.99999999999998579 ) ) ;
#294 = DATE_AND_TIME ( #218, #167 ) ;
#295 = DIRECTION ( 'NONE',  ( 0.0000000000000000000, 0.0000000000000000000, -1.000000000000000000 ) ) ;
#296 = DIRECTION ( 'NONE',  ( 0.0000000000000000000, 0.0000000000000000000, -1.000000000000000000 ) ) ;
#297 = EDGE_CURVE ( 'NONE', #141, #104, #279, .T. ) ;
#298 =( GEOMETRIC_REPRESENTATION_CONTEXT ( 3 ) GLOBAL_UNCERTAINTY_ASSIGNED_CONTEXT ( ( #177 ) ) GLOBAL_UNIT_ASSIGNED_CONTEXT ( ( #146, #113, #81 ) ) REPRESENTATION_CONTEXT ( 'NONE', 'WORKASPACE' ) );
#299 = DIRECTION ( 'NONE',  ( -0.0000000000000000000, -1.000000000000000000, -0.0000000000000000000 ) ) ;
#300 = PRODUCT_RELATED_PRODUCT_CATEGORY ( 'detail', '', ( #273 ) ) ;
#301 = DIRECTION ( 'NONE',  ( -0.0000000000000000000, -1.000000000000000000, -0.0000000000000000000 ) ) ;
#302 = EDGE_CURVE ( 'NONE', #132, #58, #5, .T. ) ;
#303 = CARTESIAN_POINT ( 'NONE',  ( 0.0000000000000000000, -71.94219766273671723, -1.020416504756019638 ) ) ;
#304 = LINE ( 'NONE', #293, #233 ) ;
#305 = COORDINATED_UNIVERSAL_TIME_OFFSET ( 3, 0, .AHEAD. ) ;
#306 = EDGE_CURVE ( 'NONE', #58, #43, #56, .T. ) ;
#307 = CC_DESIGN_APPROVAL ( #57, ( #249 ) ) ;
ENDSEC;
END-ISO-10303-21;
